  0
SECTION
  2
HEADER
  9
$ACADVER
  1
AC1015
  9
$ACADMAINTVER
 70
     6
  9
$DWGCODEPAGE
  3
ANSI_1254
  9
$INSBASE
 10
0.0
 20
0.0
 30
0.0
  9
$EXTMIN
 10
0.0
 20
0.0
 30
0.0
  9
$EXTMAX
 10
279.4
 20
215.9
 30
0.0
  9
$LIMMIN
 10
0.0
 20
0.0
  9
$LIMMAX
 10
279.4
 20
215.9
  9
$ORTHOMODE
 70
     0
  9
$REGENMODE
 70
     1
  9
$FILLMODE
 70
     1
  9
$QTEXTMODE
 70
     0
  9
$MIRRTEXT
 70
     1
  9
$LTSCALE
 40
1.0
  9
$ATTMODE
 70
     1
  9
$TEXTSIZE
 40
3.5
  9
$TRACEWID
 40
1.0
  9
$TEXTSTYLE
  7
Standard
  9
$CLAYER
  8
0
  9
$CELTYPE
  6
ByLayer
  9
$CECOLOR
 62
   256
  9
$CELTSCALE
 40
1.0
  9
$DISPSILH
 70
     0
  9
$DIMSCALE
 40
1.0
  9
$DIMASZ
 40
3.5
  9
$DIMEXO
 40
1.0
  9
$DIMDLI
 40
3.75
  9
$DIMRND
 40
0.0
  9
$DIMDLE
 40
0.0
  9
$DIMEXE
 40
1.0
  9
$DIMTP
 40
0.0
  9
$DIMTM
 40
0.0
  9
$DIMTXT
 40
3.5
  9
$DIMCEN
 40
2.5
  9
$DIMTSZ
 40
0.0
  9
$DIMTOL
 70
     0
  9
$DIMLIM
 70
     0
  9
$DIMTIH
 70
     1
  9
$DIMTOH
 70
     1
  9
$DIMSE1
 70
     0
  9
$DIMSE2
 70
     0
  9
$DIMTAD
 70
     1
  9
$DIMZIN
 70
     0
  9
$DIMBLK
  1

  9
$DIMASO
 70
     1
  9
$DIMSHO
 70
     1
  9
$DIMPOST
  1

  9
$DIMAPOST
  1

  9
$DIMALT
 70
     0
  9
$DIMALTD
 70
     3
  9
$DIMALTF
 40
0.0393700787
  9
$DIMLFAC
 40
1.0
  9
$DIMTOFL
 70
     1
  9
$DIMTVP
 40
0.0
  9
$DIMTIX
 70
     0
  9
$DIMSOXD
 70
     0
  9
$DIMSAH
 70
     0
  9
$DIMBLK1
  1

  9
$DIMBLK2
  1

  9
$DIMSTYLE
  2
ISO-25
  9
$DIMCLRD
 70
     0
  9
$DIMCLRE
 70
     0
  9
$DIMCLRT
 70
     0
  9
$DIMTFAC
 40
1.0
  9
$DIMGAP
 40
1.524
  9
$DIMJUST
 70
     0
  9
$DIMSD1
 70
     0
  9
$DIMSD2
 70
     0
  9
$DIMTOLJ
 70
     0
  9
$DIMTZIN
 70
     0
  9
$DIMALTZ
 70
     0
  9
$DIMALTTZ
 70
     0
  9
$DIMUPT
 70
     0
  9
$DIMDEC
 70
     2
  9
$DIMTDEC
 70
     2
  9
$DIMALTU
 70
     2
  9
$DIMALTTD
 70
     3
  9
$DIMTXSTY
  7
Standard
  9
$DIMAUNIT
 70
     0
  9
$DIMADEC
 70
     2
  9
$DIMALTRND
 40
0.0
  9
$DIMAZIN
 70
     0
  9
$DIMDSEP
 70
    44
  9
$DIMATFIT
 70
     3
  9
$DIMFRAC
 70
     0
  9
$DIMLDRBLK
  1

  9
$DIMLUNIT
 70
     2
  9
$DIMLWD
 70
    -2
  9
$DIMLWE
 70
    -2
  9
$DIMTMOVE
 70
     0
  9
$LUNITS
 70
     2
  9
$LUPREC
 70
     2
  9
$SKETCHINC
 40
1.0
  9
$FILLETRAD
 40
10.0
  9
$AUNITS
 70
     0
  9
$AUPREC
 70
     2
  9
$MENU
  1
.
  9
$ELEVATION
 40
0.0
  9
$PELEVATION
 40
0.0
  9
$THICKNESS
 40
0.0
  9
$LIMCHECK
 70
     0
  9
$CHAMFERA
 40
0.0
  9
$CHAMFERB
 40
0.0
  9
$CHAMFERC
 40
0.0
  9
$CHAMFERD
 40
0.0
  9
$SKPOLY
 70
     0
  9
$TDCREATE
 40
2459741.606169398
  9
$TDUCREATE
 40
2459741.481169398
  9
$TDUPDATE
 40
2459741.606169583
  9
$TDUUPDATE
 40
2459741.481169583
  9
$TDINDWG
 40
0.0000000116
  9
$TDUSRTIMER
 40
0.0000000116
  9
$USRTIMER
 70
     1
  9
$ANGBASE
 50
0.0
  9
$ANGDIR
 70
     0
  9
$PDMODE
 70
     0
  9
$PDSIZE
 40
-1.0
  9
$PLINEWID
 40
0.0
  9
$SPLFRAME
 70
     0
  9
$SPLINETYPE
 70
     6
  9
$SPLINESEGS
 70
     8
  9
$HANDSEED
  5
102
  9
$SURFTAB1
 70
     6
  9
$SURFTAB2
 70
     6
  9
$SURFTYPE
 70
     6
  9
$SURFU
 70
     6
  9
$SURFV
 70
     6
  9
$UCSBASE
  2

  9
$UCSNAME
  2

  9
$UCSORG
 10
0.0
 20
0.0
 30
0.0
  9
$UCSXDIR
 10
1.0
 20
0.0
 30
0.0
  9
$UCSYDIR
 10
0.0
 20
1.0
 30
0.0
  9
$UCSORTHOREF
  2

  9
$UCSORTHOVIEW
 70
     0
  9
$UCSORGTOP
 10
0.0
 20
0.0
 30
0.0
  9
$UCSORGBOTTOM
 10
0.0
 20
0.0
 30
0.0
  9
$UCSORGLEFT
 10
0.0
 20
0.0
 30
0.0
  9
$UCSORGRIGHT
 10
0.0
 20
0.0
 30
0.0
  9
$UCSORGFRONT
 10
0.0
 20
0.0
 30
0.0
  9
$UCSORGBACK
 10
0.0
 20
0.0
 30
0.0
  9
$PUCSBASE
  2

  9
$PUCSNAME
  2

  9
$PUCSORG
 10
0.0
 20
0.0
 30
0.0
  9
$PUCSXDIR
 10
1.0
 20
0.0
 30
0.0
  9
$PUCSYDIR
 10
0.0
 20
1.0
 30
0.0
  9
$PUCSORTHOREF
  2

  9
$PUCSORTHOVIEW
 70
     0
  9
$PUCSORGTOP
 10
0.0
 20
0.0
 30
0.0
  9
$PUCSORGBOTTOM
 10
0.0
 20
0.0
 30
0.0
  9
$PUCSORGLEFT
 10
0.0
 20
0.0
 30
0.0
  9
$PUCSORGRIGHT
 10
0.0
 20
0.0
 30
0.0
  9
$PUCSORGFRONT
 10
0.0
 20
0.0
 30
0.0
  9
$PUCSORGBACK
 10
0.0
 20
0.0
 30
0.0
  9
$USERI1
 70
     0
  9
$USERI2
 70
     0
  9
$USERI3
 70
     0
  9
$USERI4
 70
     0
  9
$USERI5
 70
     0
  9
$USERR1
 40
0.0
  9
$USERR2
 40
0.0
  9
$USERR3
 40
0.0
  9
$USERR4
 40
0.0
  9
$USERR5
 40
0.0
  9
$WORLDVIEW
 70
     1
  9
$SHADEDGE
 70
     3
  9
$SHADEDIF
 70
    70
  9
$TILEMODE
 70
     1
  9
$MAXACTVP
 70
    64
  9
$PINSBASE
 10
0.0
 20
0.0
 30
0.0
  9
$PLIMCHECK
 70
     0
  9
$PEXTMIN
 10
1.0000000000E+20
 20
1.0000000000E+20
 30
1.0000000000E+20
  9
$PEXTMAX
 10
-1.0000000000E+20
 20
-1.0000000000E+20
 30
-1.0000000000E+20
  9
$PLIMMIN
 10
0.0
 20
0.0
  9
$PLIMMAX
 10
420.0
 20
297.0
  9
$UNITMODE
 70
     0
  9
$VISRETAIN
 70
     1
  9
$PLINEGEN
 70
     0
  9
$PSLTSCALE
 70
     1
  9
$TREEDEPTH
 70
  3020
  9
$CMLSTYLE
  2
Standard
  9
$CMLJUST
 70
     0
  9
$CMLSCALE
 40
20.0
  9
$PROXYGRAPHICS
 70
     1
  9
$MEASUREMENT
 70
     1
  9
$CELWEIGHT
370
    -1
  9
$ENDCAPS
280
     0
  9
$JOINSTYLE
280
     0
  9
$LWDISPLAY
290
     1
  9
$INSUNITS
 70
     4
  9
$HYPERLINKBASE
  1

  9
$STYLESHEET
  1

  9
$XEDIT
290
     1
  9
$CEPSNTYPE
380
     0
  9
$PSTYLEMODE
290
     1
  9
$FINGERPRINTGUID
  2
{b8a1949f-fc09-4d6b-bbb9-9d5e8314edfb}
  9
$VERSIONGUID
  2
{FAEB1C32-E019-11D5-929B-00C0DF256EC4}
  9
$EXTNAMES
290
     1
  9
$PSVPSCALE
 40
0.0
  9
$OLESTARTUP
290
     0
  0
ENDSEC
  0
SECTION
  2
CLASSES
  0
CLASS
  1
ACDBDICTIONARYWDFLT
  2
AcDbDictionaryWithDefault
  3
ObjectDBX Classes
 90
        0
280
     0
281
     0
  0
CLASS
  1
VISUALSTYLE
  2
AcDbVisualStyle
  3
ObjectDBX Classes
 90
     4095
280
     0
281
     0
  0
CLASS
  1
MATERIAL
  2
AcDbMaterial
  3
ObjectDBX Classes
 90
     1153
280
     0
281
     0
  0
CLASS
  1
SCALE
  2
AcDbScale
  3
ObjectDBX Classes
 90
     1153
280
     0
281
     0
  0
CLASS
  1
TABLESTYLE
  2
AcDbTableStyle
  3
ObjectDBX Classes
 90
     4095
280
     0
281
     0
  0
CLASS
  1
MLEADERSTYLE
  2
AcDbMLeaderStyle
  3
ACDB_MLEADERSTYLE_CLASS
 90
     4095
280
     0
281
     0
  0
CLASS
  1
SUN
  2
AcDbSun
  3
SCENEOE
 90
     1153
280
     0
281
     0
  0
CLASS
  1
ACDBPLACEHOLDER
  2
AcDbPlaceHolder
  3
ObjectDBX Classes
 90
        0
280
     0
281
     0
  0
CLASS
  1
LAYOUT
  2
AcDbLayout
  3
ObjectDBX Classes
 90
        0
280
     0
281
     0
  0
ENDSEC
  0
SECTION
  2
TABLES
  0
TABLE
  2
VPORT
  5
8
330
0
100
AcDbSymbolTable
 70
     1
  0
VPORT
  5
29
330
8
100
AcDbSymbolTableRecord
100
AcDbViewportTableRecord
  2
*Active
 70
     0
 10
0.0
 20
0.0
 11
1.0
 21
1.0
 12
139.7
 22
107.95
 13
0.0
 23
0.0
 14
10.0
 24
10.0
 15
10.0
 25
10.0
 16
0.0
 26
0.0
 36
1.0
 17
0.0
 27
0.0
 37
0.0
 40
215.9
 41
1.2941176471
 42
50.0
 43
0.0
 44
0.0
 50
0.0
 51
0.0
 71
     0
 72
  2000
 73
     1
 74
     3
 75
     0
 76
     0
 77
     0
 78
     0
281
     0
 65
     1
110
0.0
120
0.0
130
0.0
111
1.0
121
0.0
131
0.0
112
0.0
122
1.0
132
0.0
 79
     0
146
0.0
  0
ENDTAB
  0
TABLE
  2
LTYPE
  5
5
330
0
100
AcDbSymbolTable
 70
     6
  0
LTYPE
  5
14
330
5
100
AcDbSymbolTableRecord
100
AcDbLinetypeTableRecord
  2
ByBlock
 70
     0
  3

 72
    65
 73
     0
 40
0.0
  0
LTYPE
  5
15
330
5
100
AcDbSymbolTableRecord
100
AcDbLinetypeTableRecord
  2
ByLayer
 70
     0
  3

 72
    65
 73
     0
 40
0.0
  0
LTYPE
  5
16
330
5
100
AcDbSymbolTableRecord
100
AcDbLinetypeTableRecord
  2
Continuous
 70
     0
  3
Solid line
 72
    65
 73
     0
 40
0.0
  0
LTYPE
  5
6E
330
5
100
AcDbSymbolTableRecord
100
AcDbLinetypeTableRecord
  2
HIDDEN
 70
     0
  3
Hidden __ __ __ __ __ __ __ __ __ __ __ __ __ __
 72
    65
 73
     2
 40
1.905
 49
1.27
 74
     0
 49
-0.635
 74
     0
  0
LTYPE
  5
6F
330
5
100
AcDbSymbolTableRecord
100
AcDbLinetypeTableRecord
  2
PHANTOM
 70
     0
  3
Phantom ______  __  __  ______  __  __  ______
 72
    65
 73
     6
 40
12.7
 49
6.35
 74
     0
 49
-1.27
 74
     0
 49
1.27
 74
     0
 49
-1.27
 74
     0
 49
1.27
 74
     0
 49
-1.27
 74
     0
  0
LTYPE
  5
70
330
5
100
AcDbSymbolTableRecord
100
AcDbLinetypeTableRecord
  2
CENTER
 70
     0
  3
Center ____ _ ____ _ ____ _ ____ _ ____ _ ____
 72
    65
 73
     4
 40
10.16
 49
6.35
 74
     0
 49
-1.27
 74
     0
 49
1.27
 74
     0
 49
-1.27
 74
     0
  0
LTYPE
  5
71
330
5
100
AcDbSymbolTableRecord
100
AcDbLinetypeTableRecord
  2
CENTERX2
 70
     0
  3
Center (2x) ________  __  ________  __  _____
 72
    65
 73
     4
 40
20.32
 49
12.7
 74
     0
 49
-2.54
 74
     0
 49
2.54
 74
     0
 49
-2.54
 74
     0
  0
LTYPE
  5
72
330
5
100
AcDbSymbolTableRecord
100
AcDbLinetypeTableRecord
  2
DOT2
 70
     0
  3
Dot (.5x) ........................................
 72
    65
 73
     2
 40
0.635
 49
0.0
 74
     0
 49
-0.635
 74
     0
  0
ENDTAB
  0
TABLE
  2
LAYER
  5
2
330
0
100
AcDbSymbolTable
 70
    17
  0
LAYER
  5
10
330
2
100
AcDbSymbolTableRecord
100
AcDbLayerTableRecord
  2
0
 70
     0
 62
     7
  6
Continuous
370
    -3
390
F
  0
LAYER
  5
73
330
2
100
AcDbSymbolTableRecord
100
AcDbLayerTableRecord
  2
FORMAT
 70
     0
 62
     7
  6
Continuous
370
    -3
390
F
  0
LAYER
  5
74
330
2
100
AcDbSymbolTableRecord
100
AcDbLayerTableRecord
  2
YARDIMCI_GEOMETRI
 70
     0
 62
    -6
  6
Continuous
290
     0
370
    -3
390
F
  0
LAYER
  5
75
330
2
100
AcDbSymbolTableRecord
100
AcDbLayerTableRecord
  2
SAYFA_CERCEVESI
 70
     0
 62
     7
  6
Continuous
370
    25
390
F
  0
LAYER
  5
76
330
2
100
AcDbSymbolTableRecord
100
AcDbLayerTableRecord
  2
ANTET
 70
     0
 62
     7
  6
Continuous
370
    -3
390
F
  0
LAYER
  5
77
330
2
100
AcDbSymbolTableRecord
100
AcDbLayerTableRecord
  2
OLCU
 70
     0
 62
   150
  6
Continuous
370
    -3
390
F
  0
LAYER
  5
78
330
2
100
AcDbSymbolTableRecord
100
AcDbLayerTableRecord
  2
METIN
 70
     0
 62
    96
  6
Continuous
370
    -3
390
F
  0
LAYER
  5
79
330
2
100
AcDbSymbolTableRecord
100
AcDbLayerTableRecord
  2
BALON
 70
     0
 62
     5
  6
Continuous
370
    -3
390
F
  0
LAYER
  5
7A
330
2
100
AcDbSymbolTableRecord
100
AcDbLayerTableRecord
  2
VURGU
 70
     0
 62
     7
  6
Continuous
370
    -3
390
F
  0
LAYER
  5
7B
330
2
100
AcDbSymbolTableRecord
100
AcDbLayerTableRecord
  2
SILIK
 70
     0
 62
     7
  6
Continuous
370
    -3
390
F
  0
LAYER
  5
7C
330
2
100
AcDbSymbolTableRecord
100
AcDbLayerTableRecord
  2
MODEL
 70
     0
 62
     7
  6
Continuous
370
    -3
390
F
  0
LAYER
  5
7D
330
2
100
AcDbSymbolTableRecord
100
AcDbLayerTableRecord
  2
DETAYLANDıRMA
 70
     0
 62
   190
  6
Continuous
370
    -3
390
F
  0
LAYER
  5
7E
330
2
100
AcDbSymbolTableRecord
100
AcDbLayerTableRecord
  2
TOLERANS
 70
     0
 62
   230
  6
Continuous
370
    -3
390
F
  0
LAYER
  5
7F
330
2
100
AcDbSymbolTableRecord
100
AcDbLayerTableRecord
  2
MERKEZ_CIZGILERI
 70
     0
 62
    30
  6
Continuous
370
    -3
390
F
  0
LAYER
  5
80
330
2
100
AcDbSymbolTableRecord
100
AcDbLayerTableRecord
  2
KESIT-DETAY_CIZGILERI
 70
     0
 62
     7
  6
Continuous
370
    -3
390
F
  0
LAYER
  5
81
330
2
100
AcDbSymbolTableRecord
100
AcDbLayerTableRecord
  2
\U+041E\U+0421\U+0415\U+0412\U+042B\U+0415
 70
     0
 62
     7
  6
Continuous
370
    -3
390
F
  0
LAYER
  5
82
330
2
100
AcDbSymbolTableRecord
100
AcDbLayerTableRecord
  2
\U+0412\U+041E\U+0414\U+042F\U+041D\U+042B\U+0415_\U+0417\U+041D\U+0410\U+041A\U+0418
 70
     0
 62
    11
  6
Continuous
370
    -3
390
F
  0
ENDTAB
  0
TABLE
  2
STYLE
  5
3
330
0
100
AcDbSymbolTable
 70
     1
  0
STYLE
  5
11
330
3
100
AcDbSymbolTableRecord
100
AcDbTextStyleTableRecord
  2
Standard
 70
     0
 40
0.0
 41
1.0
 50
0.0
 71
     0
 42
3.5
  3
txt
  4

  0
ENDTAB
  0
TABLE
  2
VIEW
  5
6
330
0
100
AcDbSymbolTable
 70
     0
  0
ENDTAB
  0
TABLE
  2
UCS
  5
7
330
0
100
AcDbSymbolTable
 70
     0
  0
ENDTAB
  0
TABLE
  2
APPID
  5
9
330
0
100
AcDbSymbolTable
 70
     1
  0
APPID
  5
12
330
9
100
AcDbSymbolTableRecord
100
AcDbRegAppTableRecord
  2
ACAD
 70
     0
  0
ENDTAB
  0
TABLE
  2
DIMSTYLE
  5
A
330
0
100
AcDbSymbolTable
 70
     1
100
AcDbDimStyleTable
  0
DIMSTYLE
105
27
330
A
100
AcDbSymbolTableRecord
100
AcDbDimStyleTableRecord
  2
ISO-25
 70
     0
 41
2.5
 42
0.625
 43
3.75
 44
1.25
 73
     0
 74
     0
 77
     1
 78
     8
140
2.5
141
2.5
143
0.0393700787
147
0.625
171
     3
172
     1
178
     0
271
     2
272
     2
274
     3
278
    44
283
     0
284
     8
340
11
  0
ENDTAB
  0
TABLE
  2
BLOCK_RECORD
  5
1
330
0
100
AcDbSymbolTable
 70
     5
  0
BLOCK_RECORD
  5
1F
330
1
100
AcDbSymbolTableRecord
100
AcDbBlockTableRecord
  2
*Model_Space
340
22
  0
BLOCK_RECORD
  5
1B
330
1
100
AcDbSymbolTableRecord
100
AcDbBlockTableRecord
  2
*Paper_Space
340
1E
  0
BLOCK_RECORD
  5
23
330
1
100
AcDbSymbolTableRecord
100
AcDbBlockTableRecord
  2
*Paper_Space0
340
26
  0
BLOCK_RECORD
  5
8B
330
1
100
AcDbSymbolTableRecord
100
AcDbBlockTableRecord
  2
SW_CENTERMARKSYMBOL_0
340
0
102
{BLKREFS
331
96
102
}
  0
BLOCK_RECORD
  5
A9
330
1
100
AcDbSymbolTableRecord
100
AcDbBlockTableRecord
  2
SW_CENTERMARKSYMBOL_1
340
0
102
{BLKREFS
331
B4
102
}
  0
BLOCK_RECORD
  5
D9
330
1
100
AcDbSymbolTableRecord
100
AcDbBlockTableRecord
  2
SW_CENTERMARKSYMBOL_2
340
0
102
{BLKREFS
331
E4
102
}
  0
BLOCK_RECORD
  5
E5
330
1
100
AcDbSymbolTableRecord
100
AcDbBlockTableRecord
  2
SW_CENTERMARKSYMBOL_3
340
0
102
{BLKREFS
331
F0
102
}
  0
ENDTAB
  0
ENDSEC
  0
SECTION
  2
BLOCKS
  0
BLOCK
  5
20
330
1F
100
AcDbEntity
  8
0
100
AcDbBlockBegin
  2
*Model_Space
 70
     0
 10
0.0
 20
0.0
 30
0.0
  3
*Model_Space
  1

  0
ENDBLK
  5
21
330
1F
100
AcDbEntity
  8
0
100
AcDbBlockEnd
  0
BLOCK
  5
1C
330
1B
100
AcDbEntity
 67
     1
  8
0
100
AcDbBlockBegin
  2
*Paper_Space
 70
     0
 10
0.0
 20
0.0
 30
0.0
  3
*Paper_Space
  1

  0
ENDBLK
  5
1D
330
1B
100
AcDbEntity
 67
     1
  8
0
100
AcDbBlockEnd
  0
BLOCK
  5
24
330
23
100
AcDbEntity
  8
0
100
AcDbBlockBegin
  2
*Paper_Space0
 70
     0
 10
0.0
 20
0.0
 30
0.0
  3
*Paper_Space0
  1

  0
ENDBLK
  5
25
330
23
100
AcDbEntity
  8
0
100
AcDbBlockEnd
  0
BLOCK
  5
8C
330
8B
100
AcDbEntity
  8
0
100
AcDbBlockBegin
  2
SW_CENTERMARKSYMBOL_0
 70
     0
 10
0.0
 20
0.0
 30
0.0
  3
SW_CENTERMARKSYMBOL_0
  1

  0
LINE
  5
8E
330
8B
100
AcDbEntity
  8
FORMAT
 62
     0
100
AcDbLine
 10
0.0
 20
0.0
 30
0.0
 11
0.0
 21
2.5
 31
0.0
  0
LINE
  5
8F
330
8B
100
AcDbEntity
  8
FORMAT
 62
     0
100
AcDbLine
 10
0.0
 20
0.0
 30
0.0
 11
-2.5
 21
0.0
 31
0.0
  0
LINE
  5
90
330
8B
100
AcDbEntity
  8
FORMAT
 62
     0
100
AcDbLine
 10
0.0
 20
0.0
 30
0.0
 11
0.0
 21
-2.5
 31
0.0
  0
LINE
  5
91
330
8B
100
AcDbEntity
  8
FORMAT
 62
     0
100
AcDbLine
 10
0.0
 20
0.0
 30
0.0
 11
2.5
 21
0.0
 31
0.0
  0
LINE
  5
92
330
8B
100
AcDbEntity
  8
FORMAT
 62
     0
100
AcDbLine
 10
0.0
 20
5.0
 30
0.0
 11
0.0
 21
104.5
 31
0.0
  0
LINE
  5
93
330
8B
100
AcDbEntity
  8
FORMAT
 62
     0
100
AcDbLine
 10
-5.0
 20
0.0
 30
0.0
 11
-104.5
 21
0.0
 31
0.0
  0
LINE
  5
94
330
8B
100
AcDbEntity
  8
FORMAT
 62
     0
100
AcDbLine
 10
0.0
 20
-5.0
 30
0.0
 11
0.0
 21
-104.5
 31
0.0
  0
LINE
  5
95
330
8B
100
AcDbEntity
  8
FORMAT
 62
     0
100
AcDbLine
 10
5.0
 20
0.0
 30
0.0
 11
104.5
 21
0.0
 31
0.0
  0
ENDBLK
  5
8D
330
8B
100
AcDbEntity
  8
0
100
AcDbBlockEnd
  0
BLOCK
  5
AA
330
A9
100
AcDbEntity
  8
0
100
AcDbBlockBegin
  2
SW_CENTERMARKSYMBOL_1
 70
     0
 10
0.0
 20
0.0
 30
0.0
  3
SW_CENTERMARKSYMBOL_1
  1

  0
LINE
  5
AC
330
A9
100
AcDbEntity
  8
FORMAT
 62
     0
100
AcDbLine
 10
0.0
 20
0.0
 30
0.0
 11
0.0
 21
2.5
 31
0.0
  0
LINE
  5
AD
330
A9
100
AcDbEntity
  8
FORMAT
 62
     0
100
AcDbLine
 10
0.0
 20
0.0
 30
0.0
 11
-2.5
 21
0.0
 31
0.0
  0
LINE
  5
AE
330
A9
100
AcDbEntity
  8
FORMAT
 62
     0
100
AcDbLine
 10
0.0
 20
0.0
 30
0.0
 11
0.0
 21
-2.5
 31
0.0
  0
LINE
  5
AF
330
A9
100
AcDbEntity
  8
FORMAT
 62
     0
100
AcDbLine
 10
0.0
 20
0.0
 30
0.0
 11
2.5
 21
0.0
 31
0.0
  0
LINE
  5
B0
330
A9
100
AcDbEntity
  8
FORMAT
 62
     0
100
AcDbLine
 10
0.0
 20
5.0
 30
0.0
 11
0.0
 21
47.5
 31
0.0
  0
LINE
  5
B1
330
A9
100
AcDbEntity
  8
FORMAT
 62
     0
100
AcDbLine
 10
-5.0
 20
0.0
 30
0.0
 11
-47.5
 21
0.0
 31
0.0
  0
LINE
  5
B2
330
A9
100
AcDbEntity
  8
FORMAT
 62
     0
100
AcDbLine
 10
0.0
 20
-5.0
 30
0.0
 11
0.0
 21
-47.5
 31
0.0
  0
LINE
  5
B3
330
A9
100
AcDbEntity
  8
FORMAT
 62
     0
100
AcDbLine
 10
5.0
 20
0.0
 30
0.0
 11
47.5
 21
0.0
 31
0.0
  0
ENDBLK
  5
AB
330
A9
100
AcDbEntity
  8
0
100
AcDbBlockEnd
  0
BLOCK
  5
DA
330
D9
100
AcDbEntity
  8
0
100
AcDbBlockBegin
  2
SW_CENTERMARKSYMBOL_2
 70
     0
 10
0.0
 20
0.0
 30
0.0
  3
SW_CENTERMARKSYMBOL_2
  1

  0
LINE
  5
DC
330
D9
100
AcDbEntity
  8
FORMAT
 62
     0
100
AcDbLine
 10
0.0
 20
0.0
 30
0.0
 11
0.0
 21
2.5
 31
0.0
  0
LINE
  5
DD
330
D9
100
AcDbEntity
  8
FORMAT
 62
     0
100
AcDbLine
 10
0.0
 20
0.0
 30
0.0
 11
-2.5
 21
0.0
 31
0.0
  0
LINE
  5
DE
330
D9
100
AcDbEntity
  8
FORMAT
 62
     0
100
AcDbLine
 10
0.0
 20
0.0
 30
0.0
 11
0.0
 21
-2.5
 31
0.0
  0
LINE
  5
DF
330
D9
100
AcDbEntity
  8
FORMAT
 62
     0
100
AcDbLine
 10
0.0
 20
0.0
 30
0.0
 11
2.5
 21
0.0
 31
0.0
  0
LINE
  5
E0
330
D9
100
AcDbEntity
  8
FORMAT
 62
     0
100
AcDbLine
 10
0.0
 20
5.0
 30
0.0
 11
0.0
 21
9.5
 31
0.0
  0
LINE
  5
E1
330
D9
100
AcDbEntity
  8
FORMAT
 62
     0
100
AcDbLine
 10
-5.0
 20
0.0
 30
0.0
 11
-9.5
 21
0.0
 31
0.0
  0
LINE
  5
E2
330
D9
100
AcDbEntity
  8
FORMAT
 62
     0
100
AcDbLine
 10
0.0
 20
-5.0
 30
0.0
 11
0.0
 21
-9.5
 31
0.0
  0
LINE
  5
E3
330
D9
100
AcDbEntity
  8
FORMAT
 62
     0
100
AcDbLine
 10
5.0
 20
0.0
 30
0.0
 11
9.5
 21
0.0
 31
0.0
  0
ENDBLK
  5
DB
330
D9
100
AcDbEntity
  8
0
100
AcDbBlockEnd
  0
BLOCK
  5
E6
330
E5
100
AcDbEntity
  8
0
100
AcDbBlockBegin
  2
SW_CENTERMARKSYMBOL_3
 70
     0
 10
0.0
 20
0.0
 30
0.0
  3
SW_CENTERMARKSYMBOL_3
  1

  0
LINE
  5
E8
330
E5
100
AcDbEntity
  8
FORMAT
 62
     0
100
AcDbLine
 10
0.0
 20
0.0
 30
0.0
 11
0.0
 21
2.5
 31
0.0
  0
LINE
  5
E9
330
E5
100
AcDbEntity
  8
FORMAT
 62
     0
100
AcDbLine
 10
0.0
 20
0.0
 30
0.0
 11
-2.5
 21
0.0
 31
0.0
  0
LINE
  5
EA
330
E5
100
AcDbEntity
  8
FORMAT
 62
     0
100
AcDbLine
 10
0.0
 20
0.0
 30
0.0
 11
0.0
 21
-2.5
 31
0.0
  0
LINE
  5
EB
330
E5
100
AcDbEntity
  8
FORMAT
 62
     0
100
AcDbLine
 10
0.0
 20
0.0
 30
0.0
 11
2.5
 21
0.0
 31
0.0
  0
LINE
  5
EC
330
E5
100
AcDbEntity
  8
FORMAT
 62
     0
100
AcDbLine
 10
0.0
 20
5.0
 30
0.0
 11
0.0
 21
9.5
 31
0.0
  0
LINE
  5
ED
330
E5
100
AcDbEntity
  8
FORMAT
 62
     0
100
AcDbLine
 10
-5.0
 20
0.0
 30
0.0
 11
-9.5
 21
0.0
 31
0.0
  0
LINE
  5
EE
330
E5
100
AcDbEntity
  8
FORMAT
 62
     0
100
AcDbLine
 10
0.0
 20
-5.0
 30
0.0
 11
0.0
 21
-9.5
 31
0.0
  0
LINE
  5
EF
330
E5
100
AcDbEntity
  8
FORMAT
 62
     0
100
AcDbLine
 10
5.0
 20
0.0
 30
0.0
 11
9.5
 21
0.0
 31
0.0
  0
ENDBLK
  5
E7
330
E5
100
AcDbEntity
  8
0
100
AcDbBlockEnd
  0
ENDSEC
  0
SECTION
  2
ENTITIES
  0
LINE
  5
83
330
1F
100
AcDbEntity
  8
0
  6
Continuous
 62
     7
370
    25
100
AcDbLine
 10
116.5400688075
 20
206.6374253947
 30
0.0
 11
116.5400688075
 21
223.8718369543
 31
0.0
  0
LINE
  5
84
330
1F
100
AcDbEntity
  8
0
  6
Continuous
 62
     7
370
    25
100
AcDbLine
 10
102.5400688075
 20
223.8718369543
 30
0.0
 11
102.5400688075
 21
206.6318945813
 31
0.0
  0
LINE
  5
85
330
1F
100
AcDbEntity
  8
0
  6
Continuous
 62
     7
370
    25
100
AcDbLine
 10
201.1105786902
 20
59.8718369543
 30
0.0
 11
300.5400688075
 21
59.8718369543
 31
0.0
  0
LINE
  5
86
330
1F
100
AcDbEntity
  8
0
  6
Continuous
 62
     7
370
    25
100
AcDbLine
 10
300.5400688075
 20
149.8718369543
 30
0.0
 11
201.1057518103
 21
149.8718369543
 31
0.0
  0
CIRCLE
  5
87
330
1F
100
AcDbEntity
  8
0
  6
Continuous
 62
     7
370
    25
100
AcDbCircle
 10
109.5400688075
 20
104.8718369543
 30
0.0
 40
80.00000000000001
  0
CIRCLE
  5
88
330
1F
100
AcDbEntity
  8
0
  6
Continuous
 62
     7
370
    25
100
AcDbCircle
 10
109.5400688075
 20
104.8718369543
 30
0.0
 40
102.0
  0
LINE
  5
89
330
1F
100
AcDbEntity
  8
0
  6
Continuous
 62
     7
370
    25
100
AcDbLine
 10
116.5400688075
 20
223.8718369543
 30
0.0
 11
102.5400688075
 21
223.8718369543
 31
0.0
  0
LINE
  5
8A
330
1F
100
AcDbEntity
  8
0
  6
Continuous
 62
     7
370
    25
100
AcDbLine
 10
300.5400688075
 20
149.8718369543
 30
0.0
 11
300.5400688075
 21
59.8718369543
 31
0.0
  0
INSERT
  5
96
330
1F
100
AcDbEntity
  8
FORMAT
 62
     7
100
AcDbBlockReference
  2
SW_CENTERMARKSYMBOL_0
 10
109.5400688075
 20
104.8718369543
 30
0.0
  0
LINE
  5
97
330
1F
100
AcDbEntity
  8
0
  6
Continuous
 62
     7
370
    25
100
AcDbLine
 10
-435.6567912051
 20
206.8718369543
 30
0.0
 11
-436.7430716686
 21
206.8718369543
 31
0.0
  0
LINE
  5
98
330
1F
100
AcDbEntity
  8
0
  6
Continuous
 62
     7
370
    25
100
AcDbLine
 10
-131.6567912051
 20
206.8718369543
 30
0.0
 11
-421.7430716686
 21
206.8718369543
 31
0.0
  0
LINE
  5
99
330
1F
100
AcDbEntity
  8
0
  6
Continuous
 62
     7
370
    25
100
AcDbLine
 10
-116.7430716686
 20
206.8718369543
 30
0.0
 11
-117.7430716686
 21
206.8718369543
 31
0.0
  0
LINE
  5
9A
330
1F
100
AcDbEntity
  8
0
  6
Continuous
 62
     7
370
    25
100
AcDbLine
 10
-436.7430716686
 20
2.8718369543
 30
0.0
 11
-116.7430716686
 21
2.8718369543
 31
0.0
  0
LINE
  5
9B
330
1F
100
AcDbEntity
  8
0
  6
Continuous
 62
     7
370
    25
100
AcDbLine
 10
-117.7430716686
 20
206.8718369543
 30
0.0
 11
-117.7430716686
 21
223.8718369543
 31
0.0
  0
LINE
  5
9C
330
1F
100
AcDbEntity
  8
0
  6
Continuous
 62
     7
370
    25
100
AcDbLine
 10
-131.7430716686
 20
223.8718369543
 30
0.0
 11
-131.7430716686
 21
206.8659952526
 31
0.0
  0
LINE
  5
9D
330
1F
100
AcDbEntity
  8
0
  6
Continuous
 62
     7
370
    25
100
AcDbLine
 10
-421.7430716686
 20
206.8718369543
 30
0.0
 11
-421.7430716686
 21
223.8718369543
 31
0.0
  0
LINE
  5
9E
330
1F
100
AcDbEntity
  8
0
  6
Continuous
 62
     7
370
    25
100
AcDbLine
 10
-435.7430716686
 20
223.8718369543
 30
0.0
 11
-435.7430716686
 21
206.8659952526
 31
0.0
  0
CIRCLE
  5
9F
330
1F
100
AcDbEntity
  8
0
  6
Continuous
 62
     7
370
    25
100
AcDbCircle
 10
-276.7430716686
 20
104.8718369543
 30
0.0
 40
36.79999999999998
  0
CIRCLE
  5
A0
330
1F
100
AcDbEntity
  8
0
  6
Continuous
 62
     7
370
    25
100
AcDbCircle
 10
-276.7430716686
 20
104.8718369543
 30
0.0
 40
44.99999999999997
  0
LINE
  5
A1
330
1F
100
AcDbEntity
  8
0
  6
Continuous
 62
     7
370
    25
100
AcDbLine
 10
-436.7430716686
 20
104.8718369543
 30
0.0
 11
-436.7430716686
 21
206.8718369543
 31
0.0
  0
LINE
  5
A2
330
1F
100
AcDbEntity
  8
0
  6
Continuous
 62
     7
370
    25
100
AcDbLine
 10
-436.7430716686
 20
2.8718369543
 30
0.0
 11
-436.7430716686
 21
104.8718369543
 31
0.0
  0
LINE
  5
A3
330
1F
100
AcDbEntity
  8
0
  6
Continuous
 62
     7
370
    25
100
AcDbLine
 10
-116.7430716686
 20
104.8718369543
 30
0.0
 11
-116.7430716686
 21
206.8718369543
 31
0.0
  0
LINE
  5
A4
330
1F
100
AcDbEntity
  8
0
  6
Continuous
 62
     7
370
    25
100
AcDbLine
 10
-116.7430716686
 20
2.8718369543
 30
0.0
 11
-116.7430716686
 21
104.8718369543
 31
0.0
  0
SPLINE
  5
A5
330
1F
100
AcDbEntity
  8
0
  6
Continuous
 62
     7
370
    25
100
AcDbSpline
210
0.0
220
0.0
230
1.0
 70
     8
 71
     3
 72
    17
 73
    13
 74
     0
 42
0.00000001
 43
0.00000001
 40
0.0
 40
0.0
 40
0.0
 40
0.0
 40
0.1071987416107221
 40
0.2143914004444458
 40
0.3217420566552194
 40
0.4291972110293517
 40
0.5364801409012592
 40
0.6435828546421558
 40
0.7507785987758452
 40
0.858195229673666
 40
0.9656163607216554
 40
0.9999999999999999
 40
0.9999999999999999
 40
0.9999999999999999
 40
0.9999999999999999
 10
-421.7430716685922
 20
206.8718369542822
 30
0.0
 10
-421.8202809412958
 20
206.8663876016089
 30
0.0
 10
-421.9746951056181
 20
206.855489205475
 30
0.0
 10
-423.1781768447705
 20
206.7796946669089
 30
0.0
 10
-424.9520294228288
 20
206.6952956347488
 30
0.0
 10
-427.1694741945264
 20
206.6344515110165
 30
0.0
 10
-429.5602817250869
 20
206.6253600979695
 30
0.0
 10
-431.8536597099579
 20
206.6711892693888
 30
0.0
 10
-433.8121131661967
 20
206.7531016899152
 30
0.0
 10
-435.1467584281588
 20
206.8308816020297
 30
0.0
 10
-435.7813912073
 20
206.8744315668181
 30
0.0
 10
-435.6811072287555
 20
206.8676243297692
 30
0.0
 10
-435.6567912051426
 20
206.8659737676433
 30
0.0
  0
SPLINE
  5
A6
330
1F
100
AcDbEntity
  8
0
  6
Continuous
 62
     7
370
    25
100
AcDbSpline
210
0.0
220
0.0
230
1.0
 70
     8
 71
     3
 72
    17
 73
    13
 74
     0
 42
0.00000001
 43
0.00000001
 40
0.0
 40
0.0
 40
0.0
 40
0.0
 40
0.1071987416107219
 40
0.2143914004444454
 40
0.3217420566552188
 40
0.4291972110293509
 40
0.5364801409012583
 40
0.6435828546421547
 40
0.750778598775844
 40
0.8581952296736646
 40
0.9656163607216537
 40
1.0
 40
1.0
 40
1.0
 40
1.0
 10
-117.7430716685921
 20
206.8718369542822
 30
0.0
 10
-117.8202809412957
 20
206.8663876016089
 30
0.0
 10
-117.974695105618
 20
206.855489205475
 30
0.0
 10
-119.1781768447704
 20
206.7796946669089
 30
0.0
 10
-120.9520294228288
 20
206.6952956347489
 30
0.0
 10
-123.1694741945263
 20
206.6344515110164
 30
0.0
 10
-125.5602817250869
 20
206.6253600979695
 30
0.0
 10
-127.8536597099578
 20
206.6711892693888
 30
0.0
 10
-129.8121131661967
 20
206.7531016899152
 30
0.0
 10
-131.1467584281588
 20
206.8308816020298
 30
0.0
 10
-131.7813912073
 20
206.8744315668181
 30
0.0
 10
-131.6811072287555
 20
206.8676243297692
 30
0.0
 10
-131.6567912051426
 20
206.8659737676433
 30
0.0
  0
LINE
  5
A7
330
1F
100
AcDbEntity
  8
0
  6
Continuous
 62
     7
370
    25
100
AcDbLine
 10
-117.7430716686
 20
223.8718369543
 30
0.0
 11
-131.7430716686
 21
223.8718369543
 31
0.0
  0
LINE
  5
A8
330
1F
100
AcDbEntity
  8
0
  6
Continuous
 62
     7
370
    25
100
AcDbLine
 10
-421.7430716686
 20
223.8718369543
 30
0.0
 11
-435.7430716686
 21
223.8718369543
 31
0.0
  0
INSERT
  5
B4
330
1F
100
AcDbEntity
  8
FORMAT
 62
     7
100
AcDbBlockReference
  2
SW_CENTERMARKSYMBOL_1
 10
-276.7430716686
 20
104.8718369543
 30
0.0
  0
LINE
  5
B5
330
1F
100
AcDbEntity
  8
0
  6
Continuous
 62
     7
370
    25
100
AcDbLine
 10
211.5400688075
 20
506.170463225
 30
0.0
 11
211.5400688075
 21
621.170463225
 31
0.0
  0
LINE
  5
B6
330
1F
100
AcDbEntity
  8
0
  6
Continuous
 62
     7
370
    25
100
AcDbLine
 10
211.5400688075
 20
301.170463225
 30
0.0
 11
211.5400688075
 21
416.2096741007
 31
0.0
  0
LINE
  5
B7
330
1F
100
AcDbEntity
  8
0
  6
Continuous
 62
     7
370
    25
100
AcDbLine
 10
7.5400688075
 20
621.170463225
 30
0.0
 11
7.5400688075
 21
301.170463225
 31
0.0
  0
LINE
  5
B8
330
1F
100
AcDbEntity
  8
0
  6
Continuous
 62
     7
370
    25
100
AcDbLine
 10
211.5227315382
 20
416.170463225
 30
0.0
 11
300.5400688075
 21
416.170463225
 31
0.0
  0
LINE
  5
B9
330
1F
100
AcDbEntity
  8
0
  6
Continuous
 62
     7
370
    25
100
AcDbLine
 10
300.5400688075
 20
506.170463225
 30
0.0
 11
211.5400688075
 21
506.170463225
 31
0.0
  0
SPLINE
  5
BA
330
1F
100
AcDbEntity
  8
0
  6
Continuous
 62
     7
370
    25
100
AcDbSpline
210
0.0
220
0.0
230
1.0
 70
     8
 71
     3
 72
    34
 73
    30
 74
     0
 42
0.00000001
 43
0.00000001
 40
0.0
 40
0.0
 40
0.0
 40
0.0
 40
0.049537094136982
 40
0.1005902261016762
 40
0.1501075678044553
 40
0.2009355843445923
 40
0.2529618604555222
 40
0.3063380513242375
 40
0.3337698382205894
 40
0.3612001162104628
 40
0.3895147853991665
 40
0.4178270397178445
 40
0.443779257495553
 40
0.469730149981612
 40
0.496589346385947
 40
0.5234484361235933
 40
0.5708911103699246
 40
0.6196600879914708
 40
0.6682664936717736
 40
0.7180516298922981
 40
0.7712556374317301
 40
0.7986079318775848
 40
0.8259592103251826
 40
0.8532667180663781
 40
0.8805726443699433
 40
0.9087932357187863
 40
0.9370120868689004
 40
0.9877910406953976
 40
1.0
 40
1.0
 40
1.0
 40
1.0
 10
211.5400688074829
 20
506.1704632249591
 30
0.0
 10
211.4920136500083
 20
506.0620729514862
 30
0.0
 10
211.3944326505586
 20
505.8419752185487
 30
0.0
 10
210.6285875524199
 20
504.08062060663
 30
0.0
 10
209.4816772499534
 20
501.3225291296482
 30
0.0
 10
208.0141758847319
 20
497.5486479823902
 30
0.0
 10
206.3351488028218
 20
492.7693071061731
 30
0.0
 10
204.8900838386221
 20
487.9965583335063
 30
0.0
 10
203.7986808000618
 20
483.7343616982724
 30
0.0
 10
203.028578119673
 20
480.2799307831246
 30
0.0
 10
202.3482149944603
 20
476.6254038185219
 30
0.0
 10
201.8001703846962
 20
472.8987311669188
 30
0.0
 10
201.4031770306624
 20
469.1783348129491
 30
0.0
 10
201.1512863557839
 20
465.4590595899229
 30
0.0
 10
201.0519813129185
 20
461.6582959420917
 30
0.0
 10
201.1267160574016
 20
456.8279639156505
 30
0.0
 10
201.5586836969614
 20
451.0085379645753
 30
0.0
 10
202.5205922060414
 20
444.4479432868541
 30
0.0
 10
203.8484892118424
 20
438.230762569867
 30
0.0
 10
205.4366897179851
 20
432.4195742470816
 30
0.0
 10
206.8652937377153
 20
428.0458689058436
 30
0.0
 10
207.9952396925389
 20
424.8949596772293
 30
0.0
 10
208.8057973015437
 20
422.7541392257399
 30
0.0
 10
209.5446450237332
 20
420.8869377035365
 30
0.0
 10
210.2000456190687
 20
419.2896844065291
 30
0.0
 10
210.7500854151087
 20
417.9865434793655
 30
0.0
 10
211.2773856929168
 20
416.765037152088
 30
0.0
 10
211.543047927226
 20
416.1638958721808
 30
0.0
 10
211.5260299986518
 20
416.2022415505349
 30
0.0
 10
211.5227314102865
 20
416.209674100738
 30
0.0
  0
LINE
  5
BB
330
1F
100
AcDbEntity
  8
0
  6
Continuous
 62
     7
370
    25
100
AcDbLine
 10
7.5400688075
 20
621.170463225
 30
0.0
 11
211.5400688075
 21
621.170463225
 31
0.0
  0
LINE
  5
BC
330
1F
100
AcDbEntity
  8
0
  6
Continuous
 62
     7
370
    25
100
AcDbLine
 10
7.5400688075
 20
301.170463225
 30
0.0
 11
211.5400688075
 21
301.170463225
 31
0.0
  0
LINE
  5
BD
330
1F
100
AcDbEntity
  8
0
  6
Continuous
 62
     7
370
    25
100
AcDbLine
 10
300.5400688075
 20
506.170463225
 30
0.0
 11
300.5400688075
 21
416.170463225
 31
0.0
  0
LINE
  5
BE
330
1F
100
AcDbEntity
  8
0
  6
Continuous
 62
     7
370
    25
100
AcDbLine
 10
361.0839355544
 20
2.8718369543
 30
0.0
 11
681.0839355544
 21
2.8718369543
 31
0.0
  0
LINE
  5
BF
330
1F
100
AcDbEntity
  8
0
  6
Continuous
 62
     7
370
    25
100
AcDbLine
 10
362.0839355544
 20
206.8718369543
 30
0.0
 11
361.0839355544
 21
206.8718369543
 31
0.0
  0
LINE
  5
C0
330
1F
100
AcDbEntity
  8
0
  6
Continuous
 62
     7
370
    25
100
AcDbLine
 10
666.0839355544
 20
206.8718369543
 30
0.0
 11
375.997655091
 21
206.8718369543
 31
0.0
  0
LINE
  5
C1
330
1F
100
AcDbEntity
  8
0
  6
Continuous
 62
     7
370
    25
100
AcDbLine
 10
681.0839355544
 20
206.8718369543
 30
0.0
 11
679.997655091
 21
206.8718369543
 31
0.0
  0
LINE
  5
C2
330
1F
100
AcDbEntity
  8
0
  6
Continuous
 62
     7
370
    25
100
AcDbLine
 10
376.0839355544
 20
206.8659952526
 30
0.0
 11
376.0839355544
 21
223.8718369543
 31
0.0
  0
LINE
  5
C3
330
1F
100
AcDbEntity
  8
0
  6
Continuous
 62
     7
370
    25
100
AcDbLine
 10
362.0839355544
 20
223.8718369543
 30
0.0
 11
362.0839355544
 21
206.8718369543
 31
0.0
  0
LINE
  5
C4
330
1F
100
AcDbEntity
  8
0
  6
Continuous
 62
     7
370
    25
100
AcDbLine
 10
680.0839355544
 20
206.8659952526
 30
0.0
 11
680.0839355544
 21
223.8718369543
 31
0.0
  0
LINE
  5
C5
330
1F
100
AcDbEntity
  8
0
  6
Continuous
 62
     7
370
    25
100
AcDbLine
 10
666.0839355544
 20
223.8718369543
 30
0.0
 11
666.0839355544
 21
206.8718369543
 31
0.0
  0
LINE
  5
C6
330
1F
100
AcDbEntity
  8
0
  6
Continuous
 62
     7
370
    25
100
AcDbLine
 10
681.0839355544
 20
206.8718369543
 30
0.0
 11
681.0839355544
 21
2.8718369543
 31
0.0
  0
LINE
  5
C7
330
1F
100
AcDbEntity
  8
0
  6
Continuous
 62
     7
370
    25
100
AcDbLine
 10
361.0839355544
 20
206.8718369543
 30
0.0
 11
361.0839355544
 21
2.8718369543
 31
0.0
  0
ARC
  5
C8
330
1F
100
AcDbEntity
  8
0
  6
Continuous
 62
     7
370
    25
100
AcDbCircle
 10
673.0837231344
 20
308.73936752
 30
0.0
 40
102.1077411841323
100
AcDbArc
 50
266.0691219218
 51
273.8825896492
  0
ARC
  5
C9
330
1F
100
AcDbEntity
  8
0
  6
Continuous
 62
     7
370
    25
100
AcDbCircle
 10
369.0837231344
 20
308.73936752
 30
0.0
 40
102.1077411841453
100
AcDbArc
 50
266.0691219218
 51
273.8825896492
  0
LINE
  5
CA
330
1F
100
AcDbEntity
  8
0
  6
Continuous
 62
     7
370
    25
100
AcDbLine
 10
376.0839355544
 20
223.8718369543
 30
0.0
 11
362.0839355544
 21
223.8718369543
 31
0.0
  0
LINE
  5
CB
330
1F
100
AcDbEntity
  8
0
  6
Continuous
 62
     7
370
    25
100
AcDbLine
 10
680.0839355544
 20
223.8718369543
 30
0.0
 11
666.0839355544
 21
223.8718369543
 31
0.0
  0
LINE
  5
CC
330
1F
100
AcDbEntity
  8
0
  6
Continuous
 62
     7
370
    25
100
AcDbLine
 10
7.5400688075
 20
-56.284145324
 30
0.0
 11
7.5400688075
 21
-376.284145324
 31
0.0
  0
LINE
  5
CD
330
1F
100
AcDbEntity
  8
0
  6
Continuous
 62
     7
370
    25
100
AcDbLine
 10
211.5400688075
 20
-171.3233561998
 30
0.0
 11
211.5400688075
 21
-56.284145324
 31
0.0
  0
LINE
  5
CE
330
1F
100
AcDbEntity
  8
0
  6
Continuous
 62
     7
370
    25
100
AcDbLine
 10
211.5400688075
 20
-376.284145324
 30
0.0
 11
211.5400688075
 21
-261.284145324
 31
0.0
  0
LINE
  5
CF
330
1F
100
AcDbEntity
  8
0
  6
Continuous
 62
     7
370
    25
100
AcDbLine
 10
211.5400688075
 20
-261.284145324
 30
0.0
 11
300.5400688075
 21
-261.284145324
 31
0.0
  0
LINE
  5
D0
330
1F
100
AcDbEntity
  8
0
  6
Continuous
 62
     7
370
    25
100
AcDbLine
 10
300.5400688075
 20
-171.284145324
 30
0.0
 11
211.5227315382
 21
-171.284145324
 31
0.0
  0
CIRCLE
  5
D1
330
1F
100
AcDbEntity
  8
0
  6
Continuous
 62
     7
370
    25
100
AcDbCircle
 10
109.5400688075
 20
-64.284145324
 30
0.0
 40
5.0
  0
CIRCLE
  5
D2
330
1F
100
AcDbEntity
  8
0
  6
Continuous
 62
     7
370
    25
100
AcDbCircle
 10
109.5400688075
 20
-64.284145324
 30
0.0
 40
7.0
  0
CIRCLE
  5
D3
330
1F
100
AcDbEntity
  8
0
  6
Continuous
 62
     7
370
    25
100
AcDbCircle
 10
109.5400688075
 20
-368.284145324
 30
0.0
 40
5.0
  0
CIRCLE
  5
D4
330
1F
100
AcDbEntity
  8
0
  6
Continuous
 62
     7
370
    25
100
AcDbCircle
 10
109.5400688075
 20
-368.284145324
 30
0.0
 40
7.0
  0
LWPOLYLINE
  5
D5
330
1F
100
AcDbEntity
  8
0
  6
Continuous
 62
     7
370
    25
100
AcDbPolyline
 90
       30
 70
   128
 43
0.0
 10
211.5227314103
 20
-171.3233561998
 10
211.5200140887
 20
-171.3294033185
 10
211.3778862052
 20
-171.6529784971
 10
210.7771290984
 20
-173.0413149778
 10
209.7558864727
 20
-175.4894139203
 10
208.4125513367
 20
-178.910788484
 10
206.8322142512
 20
-183.3180784513
 10
205.1058250832
 20
-188.8284760999
 10
204.2511580081
 20
-191.9700742929
 10
203.4516034898
 20
-195.2989994728
 10
202.7383913338
 20
-198.7658129387
 10
202.1274917205
 20
-202.3762022093
 10
201.6270727974
 20
-206.2368817048
 10
201.279407086
 20
-210.1926604648
 10
201.0828243377
 20
-217.3214929387
 10
201.1988958428
 20
-221.0045046346
 10
201.4583320837
 20
-224.6487806245
 10
202.2715697598
 20
-231.1209667112
 10
203.4739557776
 20
-237.369095438
 10
204.9804351409
 20
-243.3001318108
 10
206.63895098
 20
-248.6753928943
 10
208.341346492
 20
-253.4687183629
 10
209.1388605755
 20
-255.5388181132
 10
209.8527484224
 20
-257.3162509429
 10
210.4373475722
 20
-258.7255777095
 10
210.9104153531
 20
-259.8381021911
 10
211.2672172471
 20
-260.6624617298
 10
211.4793314663
 20
-261.1463038924
 10
211.5400688075
 20
-261.284145324
 10
211.5400688075
 20
-261.284145324
  0
LINE
  5
D6
330
1F
100
AcDbEntity
  8
0
  6
Continuous
 62
     7
370
    25
100
AcDbLine
 10
211.5400688075
 20
-376.284145324
 30
0.0
 11
7.5400688075
 21
-376.284145324
 31
0.0
  0
LINE
  5
D7
330
1F
100
AcDbEntity
  8
0
  6
Continuous
 62
     7
370
    25
100
AcDbLine
 10
211.5400688075
 20
-56.284145324
 30
0.0
 11
7.5400688075
 21
-56.284145324
 31
0.0
  0
LINE
  5
D8
330
1F
100
AcDbEntity
  8
0
  6
Continuous
 62
     7
370
    25
100
AcDbLine
 10
300.5400688075
 20
-171.284145324
 30
0.0
 11
300.5400688075
 21
-261.284145324
 31
0.0
  0
INSERT
  5
E4
330
1F
100
AcDbEntity
  8
FORMAT
 62
     7
100
AcDbBlockReference
  2
SW_CENTERMARKSYMBOL_2
 10
109.5400688075
 20
-368.284145324
 30
0.0
  0
INSERT
  5
F0
330
1F
100
AcDbEntity
  8
FORMAT
 62
     7
100
AcDbBlockReference
  2
SW_CENTERMARKSYMBOL_3
 10
109.5400688075
 20
-64.284145324
 30
0.0
  0
LINE
  5
F1
330
1F
100
AcDbEntity
  8
0
  6
Continuous
 62
     7
370
    25
100
AcDbLine
 10
721.3327841729
 20
-211.2766706027
 30
0.0
 11
704.211791092
 21
-201.3929316784
 31
0.0
  0
LINE
  5
F2
330
1F
100
AcDbEntity
  8
0
  6
Continuous
 62
     7
370
    25
100
AcDbLine
 10
614.2044764348
 20
-149.432814929
 30
0.0
 11
495.0586141932
 21
-80.651372711
 31
0.0
  0
LINE
  5
F3
330
1F
100
AcDbEntity
  8
0
  6
Continuous
 62
     7
370
    25
100
AcDbLine
 10
393.0669034643
 20
-257.3253406367
 30
0.0
 11
619.341073444
 21
-387.9506385283
 31
0.0
  0
LINE
  5
F4
330
1F
100
AcDbEntity
  8
0
  6
Continuous
 62
     7
370
    25
100
AcDbLine
 10
648.2210836733
 20
-233.7156790622
 30
0.0
 11
714.7554105095
 21
-195.3062297477
 31
0.0
  0
LINE
  5
F5
330
1F
100
AcDbEntity
  8
0
  6
Continuous
 62
     7
370
    25
100
AcDbLine
 10
669.7590675409
 20
-117.3618321335
 30
0.0
 11
603.2273319295
 21
-155.7697855656
 31
0.0
  0
LINE
  5
F6
330
1F
100
AcDbEntity
  8
0
  6
Continuous
 62
     7
370
    25
100
AcDbLine
 10
456.7196130782
 20
-79.6869925188
 30
0.0
 11
456.7196130782
 21
-75.0856325067
 31
0.0
  0
LINE
  5
F7
330
1F
100
AcDbEntity
  8
0
  6
Continuous
 62
     7
370
    25
100
AcDbLine
 10
442.7196130782
 20
-75.0856325067
 30
0.0
 11
442.7196130782
 21
-86.4910185404
 31
0.0
  0
SPLINE
  5
F8
330
1F
100
AcDbEntity
  8
0
  6
Continuous
 62
     7
370
    25
100
AcDbSpline
210
0.0
220
0.0
230
1.0
 70
     8
 71
     3
 72
    24
 73
    20
 74
     0
 42
0.00000001
 43
0.00000001
 40
0.0
 40
0.0
 40
0.0
 40
0.0
 40
0.0670506120629609
 40
0.1341162800754296
 40
0.2010014427938241
 40
0.2679096851757147
 40
0.3381777742784773
 40
0.4084474290981579
 40
0.457939359249975
 40
0.5075948982796527
 40
0.5570577027670055
 40
0.603930444972026
 40
0.6509775220965801
 40
0.6978387813465151
 40
0.7619669916511426
 40
0.8261185360218849
 40
0.8917035648006707
 40
0.9573083523544107
 40
1.0
 40
1.0
 40
1.0
 40
1.0
 10
597.5049303462351
 20
-174.2950094007049
 30
0.0
 10
597.5494038989374
 20
-176.3238712210532
 30
0.0
 10
597.6383609907018
 20
-180.3820504346399
 30
0.0
 10
598.3460303866492
 20
-187.1198467526311
 30
0.0
 10
599.4849692793246
 20
-194.0748897120606
 30
0.0
 10
601.1235800856886
 20
-201.2077543647622
 30
0.0
 10
603.3136858166107
 20
-208.3106837108757
 30
0.0
 10
605.8375238486336
 20
-214.5028344166696
 30
0.0
 10
608.5209239276614
 20
-219.6267409161485
 30
0.0
 10
611.1934164770711
 20
-223.7703289065946
 30
0.0
 10
614.1325005803333
 20
-227.4244000065344
 30
0.0
 10
617.3281266782667
 20
-230.5184097770102
 30
0.0
 10
620.7162487798402
 20
-233.0476170268798
 30
0.0
 10
624.7556716826738
 20
-235.2661835753792
 30
0.0
 10
629.478181615456
 20
-236.8224379018761
 30
0.0
 10
634.8203339098692
 20
-237.4505513160449
 30
0.0
 10
640.1115259519496
 20
-236.9108294006532
 30
0.0
 10
644.6767252583577
 20
-235.6594801208962
 30
0.0
 10
647.164604900677
 20
-234.1692561648179
 30
0.0
 10
648.1453544597831
 20
-233.5817934664491
 30
0.0
  0
SPLINE
  5
F9
330
1F
100
AcDbEntity
  8
0
  6
Continuous
 62
     7
370
    25
100
AcDbSpline
210
0.0
220
0.0
230
1.0
 70
     8
 71
     3
 72
    15
 73
    11
 74
     0
 42
0.00000001
 43
0.00000001
 40
0.0
 40
0.0
 40
0.0
 40
0.0
 40
0.023446295380809
 40
0.1706360298585092
 40
0.3182861825685347
 40
0.4654228946834607
 40
0.6106382036920716
 40
0.7563740258669553
 40
0.9015297487013914
 40
1.0
 40
1.0
 40
1.0
 40
1.0
 10
603.2542133774916
 20
-155.8203887985129
 30
0.0
 10
603.1533355777457
 20
-155.8566973395903
 30
0.0
 10
602.4191732305625
 20
-156.1209414429237
 30
0.0
 10
601.392672990231
 20
-157.232877350718
 30
0.0
 10
600.0877144169332
 20
-159.038630662464
 30
0.0
 10
599.0816059728048
 20
-161.4211414695558
 30
0.0
 10
598.3184488605148
 20
-164.2988353133038
 30
0.0
 10
597.8034708711556
 20
-167.6493434357709
 30
0.0
 10
597.5421479333429
 20
-171.0182313886493
 30
0.0
 10
597.5156431950853
 20
-173.3518094168707
 30
0.0
 10
597.5049303462351
 20
-174.2950094007049
 30
0.0
  0
LWPOLYLINE
  5
FA
330
1F
100
AcDbEntity
  8
0
  6
Continuous
 62
     7
370
    25
100
AcDbPolyline
 90
      111
 70
   128
 43
0.0
 10
516.1876505098
 20
-127.3515429709
 10
516.0700223071
 20
-122.6646832018
 10
515.7175213778
 20
-118.1289216271
 10
515.1312975068
 20
-113.7590529583
 10
514.3132628343
 20
-109.5693307986
 10
513.2660856194
 20
-105.573421151
 10
511.9931815366
 20
-101.7843578421
 10
510.4987025345
 20
-98.2145000089
 10
508.7875232928
 20
-94.8754917856
 10
506.8652253227
 20
-91.7782243231
 10
504.7380787605
 20
-88.932800264
 10
502.4130219162
 20
-86.3485007902
 10
499.8976386419
 20
-84.0337553493
 10
497.200133595
 20
-81.99611416
 10
494.3293054765
 20
-80.2422235843
 10
491.2945183307
 20
-78.7778044486
 10
488.1056710027
 20
-77.6076333838
 10
484.7731648496
 20
-76.7355272446
 10
481.3078698138
 20
-76.1643306602
 10
477.7210889675
 20
-75.8959067548
 10
474.0245216442
 20
-75.9311310717
 10
470.2302252782
 20
-76.2698887163
 10
466.3505760756
 20
-76.9110747316
 10
462.3982286458
 20
-77.8525977022
 10
458.3860747245
 20
-79.0913865757
 10
454.3272011238
 20
-80.6234006804
 10
450.2348470459
 20
-82.4436429047
 10
446.1223608991
 20
-84.5461759968
 10
442.0031567584
 20
-86.9241419308
 10
437.8906706116
 20
-89.5697842761
 10
433.7983165337
 20
-92.4744734971
 10
429.739442933
 20
-95.6287351015
 10
425.7272890117
 20
-99.0222805435
 10
421.7749415819
 20
-102.6440407833
 10
417.8952923793
 20
-106.4822023916
 10
414.1009960133
 20
-110.5242460832
 10
410.40442869
 20
-114.7569875516
 10
406.8176478437
 20
-119.166620474
 10
403.3523528079
 20
-123.7387615444
 10
400.0198466548
 20
-128.4584973888
 10
396.8309993268
 20
-133.3104332099
 10
393.7962121811
 20
-138.2787430017
 10
390.9253840625
 20
-143.3472211702
 10
388.2278790156
 20
-148.4993353931
 10
385.7124957414
 20
-153.7182805448
 10
383.387438897
 20
-158.9870335109
 10
381.2602923348
 20
-164.2884087143
 10
379.3379943647
 20
-169.6051141711
 10
377.626815123
 20
-174.9198078932
 10
376.1323361209
 20
-180.2151544542
 10
374.8594320381
 20
-185.4738815344
 10
373.8122548233
 20
-190.678836259
 10
372.9942201508
 20
-195.8130411476
 10
372.4079962797
 20
-200.8597494911
 10
372.0554953504
 20
-205.8024999757
 10
371.9378671477
 20
-210.6251703768
 10
372.0554953504
 20
-215.3120301459
 10
372.4079962797
 20
-219.8477917206
 10
372.9942201508
 20
-224.2176603895
 10
373.8122548233
 20
-228.4073825491
 10
374.8594320381
 20
-232.4032921967
 10
376.1323361209
 20
-236.1923555056
 10
377.626815123
 20
-239.7622133388
 10
379.3379943647
 20
-243.1012215621
 10
381.2602923348
 20
-246.1984890246
 10
383.387438897
 20
-249.0439130837
 10
385.7124957414
 20
-251.6282125576
 10
388.2278790156
 20
-253.9429579984
 10
390.9253840625
 20
-255.9805991877
 10
393.7962121811
 20
-257.7344897634
 10
396.8309993268
 20
-259.1989088991
 10
400.0198466548
 20
-260.3690799639
 10
403.3523528079
 20
-261.2411861031
 10
406.8176478437
 20
-261.8123826876
 10
410.40442869
 20
-262.0808065929
 10
414.1009960133
 20
-262.045582276
 10
417.8952923793
 20
-261.7068246314
 10
421.7749415819
 20
-261.0656386161
 10
425.7272890117
 20
-260.1241156456
 10
429.739442933
 20
-258.885326772
 10
433.7983165337
 20
-257.3533126673
 10
437.8906706116
 20
-255.533070443
 10
442.0031567584
 20
-253.4305373509
 10
446.1223608991
 20
-251.0525714169
 10
450.2348470459
 20
-248.4069290717
 10
454.3272011238
 20
-245.5022398506
 10
458.3860747245
 20
-242.3479782462
 10
462.3982286458
 20
-238.9544328042
 10
466.3505760756
 20
-235.3326725644
 10
470.2302252782
 20
-231.4945109561
 10
474.0245216442
 20
-227.4524672645
 10
477.7210889675
 20
-223.2197257961
 10
481.3078698138
 20
-218.8100928737
 10
484.7731648496
 20
-214.2379518034
 10
488.1056710027
 20
-209.518215959
 10
491.2945183307
 20
-204.6662801378
 10
494.3293054765
 20
-199.697970346
 10
497.200133595
 20
-194.6294921775
 10
499.8976386419
 20
-189.4773779546
 10
502.4130219162
 20
-184.2584328029
 10
504.7380787605
 20
-178.9896798368
 10
506.8652253227
 20
-173.6883046334
 10
508.7875232928
 20
-168.3715991766
 10
510.4987025345
 20
-163.0569054546
 10
511.9931815366
 20
-157.7615588935
 10
513.2660856194
 20
-152.5028318134
 10
514.3132628343
 20
-147.2978770887
 10
515.1312975068
 20
-142.1636722001
 10
515.7175213778
 20
-137.1169638566
 10
516.0700223071
 20
-132.174213372
 10
516.1876505098
 20
-127.3515429709
  0
LWPOLYLINE
  5
FB
330
1F
100
AcDbEntity
  8
0
  6
Continuous
 62
     7
370
    25
100
AcDbPolyline
 90
       15
 70
   128
 43
0.0
 10
742.4618204895
 20
-257.9768408625
 10
742.3441922868
 20
-253.2899810934
 10
741.9916913575
 20
-248.7542195187
 10
741.4054674864
 20
-244.3843508499
 10
740.5874328139
 20
-240.1946286902
 10
739.5402555991
 20
-236.1987190426
 10
738.2673515163
 20
-232.4096557337
 10
736.7728725142
 20
-228.8397979005
 10
735.0616932725
 20
-225.5007896773
 10
733.1393953024
 20
-222.4035222147
 10
731.0122487402
 20
-219.5580981556
 10
728.6871918959
 20
-216.9737986818
 10
726.1718086216
 20
-214.659053241
 10
723.4743035747
 20
-212.6214120517
 10
721.3327841729
 20
-211.2766706027
  0
LWPOLYLINE
  5
FC
330
1F
100
AcDbEntity
  8
0
  6
Continuous
 62
     7
370
    25
100
AcDbPolyline
 90
       43
 70
   128
 43
0.0
 10
619.341073444
 20
-387.9506385283
 10
620.0703821607
 20
-388.3597876551
 10
623.1051693065
 20
-389.8242067908
 10
626.2940166345
 20
-390.9943778556
 10
629.6265227876
 20
-391.8664839947
 10
633.0918178234
 20
-392.4376805792
 10
636.6785986697
 20
-392.7061044845
 10
640.375165993
 20
-392.6708801677
 10
644.169462359
 20
-392.3321225231
 10
648.0491115616
 20
-391.6909365077
 10
652.0014589914
 20
-390.7494135372
 10
656.0136129127
 20
-389.5106246636
 10
660.0724865134
 20
-387.9786105589
 10
664.1648405913
 20
-386.1583683346
 10
668.2773267381
 20
-384.0558352425
 10
672.3965308788
 20
-381.6778693085
 10
676.5090170256
 20
-379.0322269633
 10
680.6013711035
 20
-376.1275377422
 10
684.6602447042
 20
-372.9732761378
 10
688.6723986255
 20
-369.5797306958
 10
692.6247460553
 20
-365.9579704561
 10
696.5043952579
 20
-362.1198088477
 10
700.2986916239
 20
-358.0777651561
 10
703.9952589472
 20
-353.8450236877
 10
707.5820397935
 20
-349.4353907653
 10
711.0473348293
 20
-344.863249695
 10
714.3798409824
 20
-340.1435138506
 10
717.5686883104
 20
-335.2915780294
 10
720.6034754562
 20
-330.3232682377
 10
723.4743035747
 20
-325.2547900692
 10
726.1718086216
 20
-320.1026758462
 10
728.6871918959
 20
-314.8837306946
 10
731.0122487402
 20
-309.6149777285
 10
733.1393953024
 20
-304.313602525
 10
735.0616932725
 20
-298.9968970682
 10
736.7728725142
 20
-293.6822033462
 10
738.2673515163
 20
-288.3868567852
 10
739.5402555991
 20
-283.128129705
 10
740.5874328139
 20
-277.9231749804
 10
741.4054674865
 20
-272.7889700917
 10
741.9916913575
 20
-267.7422617483
 10
742.3441922868
 20
-262.7995112636
 10
742.4618204895
 20
-257.9768408625
  0
LWPOLYLINE
  5
FD
330
1F
100
AcDbEntity
  8
0
  6
Continuous
 62
     7
370
    25
100
AcDbPolyline
 90
       98
 70
   128
 43
0.0
 10
500.6313013237
 20
-136.3320322009
 10
500.5126672606
 20
-132.1721551119
 10
500.1572626638
 20
-128.1666979668
 10
499.5665782237
 20
-124.3324610448
 10
498.7430914761
 20
-120.685526468
 10
497.6902564107
 20
-117.2411907476
 10
496.4124889835
 20
-114.0139006245
 10
494.9151485952
 20
-111.0171924751
 10
493.2045156118
 20
-108.2636355347
 10
491.2877650225
 20
-105.7647791781
 10
489.1729363453
 20
-103.5311044772
 10
486.8688999068
 20
-101.5719802401
 10
484.3853196364
 20
-99.8956237145
 10
481.7326125328
 20
-98.5090661225
 10
478.9219049717
 20
-97.4181231683
 10
475.9649860372
 20
-96.6273706458
 10
472.874258075
 20
-96.1401252459
 10
469.6626846722
 20
-95.9584306453
 10
466.3437362839
 20
-96.083048934
 10
462.9313337329
 20
-96.5134574198
 10
459.4397898215
 20
-97.2478508199
 10
455.8837492981
 20
-98.2831488332
 10
452.2781274327
 20
-99.6150090599
 10
448.6380474563
 20
-101.2378452154
 10
444.9787771294
 20
-103.144850561
 10
441.3156647034
 20
-105.3280264535
 10
437.6640745449
 20
-107.7782158944
 10
434.0393226919
 20
-110.4851419378
 10
430.4566126135
 20
-113.4374507951
 10
426.9309714407
 20
-116.6227594569
 10
423.477186938
 20
-120.0277076318
 10
420.1097454778
 20
-123.6380137839
 10
416.8427712799
 20
-127.4385350343
 10
413.6899671693
 20
-131.4133306763
 10
410.6645571023
 20
-135.5457290356
 10
407.7792307
 20
-139.8183973973
 10
405.046090024
 20
-144.2134147055
 10
402.4765988163
 20
-148.7123467303
 10
400.0815344159
 20
-153.2963233871
 10
397.8709425553
 20
-157.9461178849
 10
395.8540952249
 20
-162.6422273697
 10
394.0394517833
 20
-167.3649547262
 10
392.4346234758
 20
-172.0944911946
 10
391.0463415101
 20
-176.8109994554
 10
389.8804288231
 20
-181.4946968338
 10
388.9417756578
 20
-186.1259382753
 10
388.2343190518
 20
-190.6852987438
 10
387.761026324
 20
-195.1536546971
 10
387.5238826286
 20
-199.5122642974
 10
387.5238826286
 20
-203.7428460213
 10
387.761026324
 20
-207.8276553388
 10
388.2343190518
 20
-211.7495591402
 10
388.9417756578
 20
-215.4921075978
 10
389.8804288231
 20
-219.0396031628
 10
391.0463415101
 20
-222.3771664061
 10
392.4346234758
 20
-225.4907984274
 10
394.0394517833
 20
-228.367439572
 10
395.8540952249
 20
-230.9950242072
 10
397.8709425553
 20
-233.3625313299
 10
400.0815344159
 20
-235.4600307926
 10
402.4765988163
 20
-237.2787249534
 10
405.046090024
 20
-238.8109855771
 10
407.7792307
 20
-240.0503858301
 10
410.6645571023
 20
-240.991727237
 10
413.6899671693
 20
-241.6310614849
 10
416.8427712799
 20
-241.9657069836
 10
420.1097454778
 20
-241.9942601137
 10
423.477186938
 20
-241.7166011134
 10
426.9309714407
 20
-241.1338945811
 10
430.4566126135
 20
-240.2485845905
 10
434.0393226919
 20
-239.0643844393
 10
437.6640745449
 20
-237.5862610745
 10
441.3156647034
 20
-235.8204142592
 10
444.9787771294
 20
-233.7742505686
 10
448.6380474563
 20
-231.4563523244
 10
452.2781274327
 20
-228.8764415972
 10
455.8837492982
 20
-226.0453394292
 10
459.4397898215
 20
-222.9749204469
 10
462.9313337329
 20
-219.6780630544
 10
466.3437362839
 20
-216.1685954175
 10
469.6626846722
 20
-212.461237463
 10
472.874258075
 20
-208.5715391386
 10
475.9649860372
 20
-204.5158151907
 10
478.9219049717
 20
-200.3110767352
 10
481.7326125328
 20
-195.9749599064
 10
484.3853196364
 20
-191.525651885
 10
486.8688999068
 20
-186.9818146153
 10
489.1729363453
 20
-182.3625065299
 10
491.2877650225
 20
-177.687102612
 10
493.2045156118
 20
-172.9752131307
 10
494.9151485952
 20
-168.2466013879
 10
496.4124889835
 20
-163.5211008245
 10
497.6902564107
 20
-158.8185318322
 10
498.7430914761
 20
-154.1586186195
 10
499.5665782237
 20
-149.5609064819
 10
500.1572626638
 20
-145.0446798219
 10
500.5126672606
 20
-140.6288812637
 10
500.6313013237
 20
-136.3320322009
  0
LWPOLYLINE
  5
FE
330
1F
100
AcDbEntity
  8
0
  6
Continuous
 62
     7
370
    25
100
AcDbPolyline
 90
       67
 70
   128
 43
0.0
 10
718.2787685729
 20
-171.3559401981
 10
718.1609410723
 20
-168.431609123
 10
717.8085256348
 20
-165.3977205065
 10
717.2247137889
 20
-162.2817497138
 10
716.4147926253
 20
-159.1119154588
 10
715.3860969154
 20
-155.9169242515
 10
714.1479426869
 20
-152.7257104269
 10
712.7115428561
 20
-149.5671741117
 10
711.0899056824
 20
-146.4699194997
 10
709.2977169632
 20
-143.4619958085
 10
707.351207037
 20
-140.5706432607
 10
705.2680037991
 20
-137.8220463928
 10
703.0669730606
 20
-135.2410969236
 10
700.7680476968
 20
-132.8511683312
 10
698.3920471317
 20
-130.6739041789
 10
695.9604887944
 20
-128.7290221082
 10
693.4953932538
 20
-127.0341352722
 10
691.0190847967
 20
-125.6045928286
 10
688.553989256
 20
-124.4533409351
 10
686.1224309187
 20
-123.5908055072
 10
683.7464303537
 20
-123.0247977992
 10
681.4475049899
 20
-122.7604436645
 10
679.2464742514
 20
-122.8001371353
 10
677.1632710135
 20
-123.1435187412
 10
675.2167610873
 20
-123.7874787652
 10
673.424572368
 20
-124.7261854057
 10
671.8029351943
 20
-125.95113759
 10
670.3665353636
 20
-127.4512419614
 10
669.128381135
 20
-129.2129133423
 10
668.0996854252
 20
-131.2201977641
 10
667.2897642615
 20
-133.454916948
 10
666.7059524157
 20
-135.8968329312
 10
666.3535369781
 20
-138.5238313444
 10
666.2357094776
 20
-141.3121216831
 10
666.3535369781
 20
-144.2364527582
 10
666.7059524157
 20
-147.2703413747
 10
667.2897642615
 20
-150.3863121674
 10
668.0996854252
 20
-153.5561464224
 10
669.128381135
 20
-156.7511376297
 10
670.3665353636
 20
-159.9423514543
 10
671.8029351943
 20
-163.1008877695
 10
673.424572368
 20
-166.1981423815
 10
675.2167610873
 20
-169.2060660727
 10
677.1632710135
 20
-172.0974186205
 10
679.2464742514
 20
-174.8460154884
 10
681.4475049899
 20
-177.4269649576
 10
683.7464303537
 20
-179.8168935501
 10
686.1224309187
 20
-181.9941577023
 10
688.553989256
 20
-183.939039773
 10
691.0190847967
 20
-185.633926609
 10
693.4953932538
 20
-187.0634690526
 10
695.9604887944
 20
-188.2147209461
 10
698.3920471317
 20
-189.077256374
 10
700.7680476968
 20
-189.6432640821
 10
703.0669730606
 20
-189.9076182167
 10
705.2680037991
 20
-189.8679247459
 10
707.351207037
 20
-189.52454314
 10
709.2977169632
 20
-188.880583116
 10
711.0899056824
 20
-187.9418764755
 10
712.7115428561
 20
-186.7169242912
 10
714.1479426869
 20
-185.2168199199
 10
715.3860969154
 20
-183.4551485389
 10
716.4147926253
 20
-181.4478641171
 10
717.2247137889
 20
-179.2131449332
 10
717.8085256348
 20
-176.77122895
 10
718.1609410723
 20
-174.1442305368
 10
718.2787685729
 20
-171.3559401981
  0
LWPOLYLINE
  5
FF
330
1F
100
AcDbEntity
  8
0
  6
Continuous
 62
     7
370
    25
100
AcDbPolyline
 90
       74
 70
   128
 43
0.0
 10
724.0770441786
 20
-174.7032134566
 10
723.9592528263
 20
-171.4764944614
 10
723.6067508554
 20
-168.1376659641
 10
723.0221480671
 20
-164.7114474829
 10
722.209772656
 20
-161.2232055406
 10
721.1756391653
 20
-157.6987658601
 10
719.9274039577
 20
-154.1642221597
 10
718.4743085298
 20
-150.6457429644
 10
716.8271110919
 20
-147.1693778632
 10
714.9980069174
 20
-143.7608646469
 10
713.0005380538
 20
-140.4454387548
 10
710.8494930616
 20
-137.2476464404
 10
708.5607975253
 20
-134.1911630391
 10
706.1513961461
 20
-131.2986176846
 10
703.6391272886
 20
-128.5914257707
 10
701.0425909126
 20
-126.0896303993
 10
698.381010865
 20
-123.8117539878
 10
695.6740925532
 20
-121.7746611364
 10
692.9418770533
 20
-119.9934337677
 10
690.204592733
 20
-118.4812594661
 10
687.4825054877
 20
-117.2493338409
 10
684.795768699
 20
-116.3067776386
 10
682.164274026
 20
-115.6605692153
 10
679.6075041346
 20
-115.3154928723
 10
677.1443884547
 20
-115.274103434
 10
674.7931630328
 20
-115.5367073334
 10
672.5712355194
 20
-116.1013603431
 10
670.4950562885
 20
-116.9638819696
 10
668.5799966447
 20
-118.1178864048
 10
666.8402350194
 20
-119.5548298034
 10
665.2886519993
 20
-121.2640735394
 10
663.9367349619
 20
-123.23296297
 10
662.7944930282
 20
-125.4469211269
 10
661.8703829578
 20
-127.8895566384
 10
661.1712465382
 20
-130.5427850857
 10
660.702259931
 20
-133.3869628938
 10
660.4668953489
 20
-136.4010327653
 10
660.4668953489
 20
-139.5626795813
 10
660.702259931
 20
-142.848495615
 10
661.1712465382
 20
-146.234153834
 10
661.8703829578
 20
-149.6945880095
 10
662.7944930282
 20
-153.2041782976
 10
663.9367349619
 20
-156.7369409196
 10
665.2886519993
 20
-160.266720537
 10
666.8402350194
 20
-163.7673838966
 10
668.5799966447
 20
-167.2130133117
 10
670.4950562885
 20
-170.5780985474
 10
672.5712355194
 20
-173.8377256902
 10
674.7931630328
 20
-176.9677616011
 10
677.1443884547
 20
-179.9450325892
 10
679.6075041346
 20
-182.7474959819
 10
682.164274026
 20
-185.3544033207
 10
684.795768699
 20
-187.7464539758
 10
687.4825054877
 20
-189.9059380409
 10
690.204592733
 20
-191.8168674516
 10
692.9418770533
 20
-193.4650943551
 10
695.6740925532
 20
-194.8384158562
 10
698.381010865
 20
-195.9266643628
 10
701.0425909126
 20
-196.7217828638
 10
703.6391272886
 20
-197.21788458
 10
706.1513961461
 20
-197.4112965479
 10
708.5607975253
 20
-197.3005868129
 10
710.8494930616
 20
-196.8865750311
 10
713.0005380538
 20
-196.172326401
 10
714.9980069174
 20
-195.1631289695
 10
716.8271110919
 20
-193.8664544812
 10
718.4743085298
 20
-192.2919030606
 10
719.9274039577
 20
-190.4511321353
 10
721.1756391653
 20
-188.3577701292
 10
722.209772656
 20
-186.0273155624
 10
723.0221480671
 20
-183.477022305
 10
723.6067508554
 20
-180.725771836
 10
723.9592528263
 20
-177.7939334513
 10
724.0770441786
 20
-174.7032134566
  0
LWPOLYLINE
  5
100
330
1F
100
AcDbEntity
  8
0
  6
Continuous
 62
     7
370
    25
100
AcDbPolyline
 90
       16
 70
   128
 43
0.0
 10
456.7196130782
 20
-75.0856325067
 10
456.6755985475
 20
-74.633182493
 10
456.3267963904
 20
-73.7509701986
 10
455.6466824728
 20
-72.9356834453
 10
454.6693605466
 20
-72.2282041154
 10
453.4438376139
 20
-71.6640081766
 10
452.0315665119
 20
-71.2713867691
 10
450.503364411
 20
-71.0700275699
 10
448.9358617455
 20
-71.0700275699
 10
447.4076596446
 20
-71.2713867691
 10
445.9953885426
 20
-71.6640081766
 10
444.7698656099
 20
-72.2282041154
 10
443.7925436836
 20
-72.9356834453
 10
443.1124297661
 20
-73.7509701986
 10
442.763627609
 20
-74.633182493
 10
442.7196130782
 20
-75.0856325067
  0
ENDSEC
  0
SECTION
  2
OBJECTS
  0
DICTIONARY
  5
C
330
0
100
AcDbDictionary
281
     1
  3
ACAD_GROUP
350
D
  3
ACAD_LAYOUT
350
1A
  3
ACAD_MLINESTYLE
350
17
  3
ACAD_PLOTSETTINGS
350
19
  3
ACAD_PLOTSTYLENAME
350
E
  3
ACAD_SCALELIST
350
47
  3
DWGPROPS
350
101
  0
DICTIONARY
  5
D
102
{ACAD_REACTORS
330
C
102
}
330
C
100
AcDbDictionary
281
     1
  0
DICTIONARY
  5
1A
102
{ACAD_REACTORS
330
C
102
}
330
C
100
AcDbDictionary
281
     1
  3
Layout1
350
1E
  3
Layout2
350
26
  3
Model
350
22
  0
DICTIONARY
  5
17
102
{ACAD_REACTORS
330
C
102
}
330
C
100
AcDbDictionary
281
     1
  3
Standard
350
18
  0
DICTIONARY
  5
19
102
{ACAD_REACTORS
330
C
102
}
330
C
100
AcDbDictionary
281
     1
  0
ACDBDICTIONARYWDFLT
  5
E
102
{ACAD_REACTORS
330
C
102
}
330
C
100
AcDbDictionary
281
     1
  3
Normal
350
F
100
AcDbDictionaryWithDefault
340
F
  0
DICTIONARY
  5
47
102
{ACAD_REACTORS
330
C
102
}
330
C
100
AcDbDictionary
281
     1
  3
A0
350
48
  3
A1
350
49
  3
A2
350
4A
  3
A3
350
4B
  3
A4
350
4C
  3
A5
350
4D
  3
A6
350
4E
  3
A7
350
4F
  3
A8
350
50
  3
A9
350
51
  3
B0
350
52
  3
B1
350
53
  3
B2
350
54
  3
B3
350
55
  3
B4
350
56
  3
B5
350
57
  3
B6
350
58
  3
B7
350
59
  3
B8
350
5A
  3
B9
350
5B
  3
C0
350
5C
  3
C1
350
5D
  3
C2
350
5E
  3
C3
350
5F
  3
C4
350
60
  3
C5
350
61
  3
C6
350
62
  3
C7
350
63
  3
C8
350
64
  3
C9
350
65
  3
D0
350
66
  3
D1
350
67
  3
D2
350
68
  0
XRECORD
  5
101
102
{ACAD_REACTORS
330
C
102
}
330
C
100
AcDbXrecord
280
     1
  1
DWGPROPS COOKIE
  2

  3

  4

  6

  7

  8
b.kav
  9

300
=
301
=
302
=
303
=
304
=
305
=
306
=
307
=
308
=
309
=
 40
0.0
 41
2459741.481169398
 42
2459741.481169583
  1

 90
        0
  0
LAYOUT
  5
1E
102
{ACAD_REACTORS
330
1A
102
}
330
1A
100
AcDbPlotSettings
  1

  2
none_device
  4

  6

 40
0.0
 41
0.0
 42
0.0
 43
0.0
 44
0.0
 45
0.0
 46
0.0
 47
0.0
 48
0.0
 49
0.0
140
0.0
141
0.0
142
1.0
143
1.0
 70
   688
 72
     1
 73
     0
 74
     5
  7

 75
    16
147
1.0
148
0.0
149
0.0
100
AcDbLayout
  1
Layout1
 70
     1
 71
     1
 10
0.0
 20
0.0
 11
420.0
 21
297.0
 12
0.0
 22
0.0
 32
0.0
 14
1.0000000000E+20
 24
1.0000000000E+20
 34
1.0000000000E+20
 15
-1.0000000000E+20
 25
-1.0000000000E+20
 35
-1.0000000000E+20
146
0.0
 13
0.0
 23
0.0
 33
0.0
 16
1.0
 26
0.0
 36
0.0
 17
0.0
 27
1.0
 37
0.0
 76
     0
330
1B
  0
LAYOUT
  5
26
102
{ACAD_REACTORS
330
1A
102
}
330
1A
100
AcDbPlotSettings
  1

  2
none_device
  4

  6

 40
0.0
 41
0.0
 42
0.0
 43
0.0
 44
0.0
 45
0.0
 46
0.0
 47
0.0
 48
0.0
 49
0.0
140
0.0
141
0.0
142
1.0
143
1.0
 70
   688
 72
     1
 73
     0
 74
     5
  7

 75
    16
147
1.0
148
0.0
149
0.0
100
AcDbLayout
  1
Layout2
 70
     1
 71
     2
 10
0.0
 20
0.0
 11
0.0
 21
0.0
 12
0.0
 22
0.0
 32
0.0
 14
0.0
 24
0.0
 34
0.0
 15
0.0
 25
0.0
 35
0.0
146
0.0
 13
0.0
 23
0.0
 33
0.0
 16
1.0
 26
0.0
 36
0.0
 17
0.0
 27
1.0
 37
0.0
 76
     0
330
23
  0
LAYOUT
  5
22
102
{ACAD_REACTORS
330
1A
102
}
330
1A
100
AcDbPlotSettings
  1

  2
none_device
  4
Letter_(8.50_x_11.00_Inches)
  6

 40
6.35
 41
6.35
 42
6.35000508
 43
6.35000508
 44
215.9
 45
279.4
 46
0.0
 47
0.0
 48
0.0
 49
0.0
140
0.0
141
0.0
142
1.0
143
1.0
 70
  1712
 72
     1
 73
     0
 74
     0
  7

 75
     0
147
1.0
148
0.0
149
0.0
100
AcDbLayout
  1
Model
 70
     1
 71
     0
 10
0.0
 20
0.0
 11
279.4
 21
215.9
 12
0.0
 22
0.0
 32
0.0
 14
0.0
 24
0.0
 34
0.0
 15
279.4
 25
215.9
 35
0.0
146
0.0
 13
0.0
 23
0.0
 33
0.0
 16
1.0
 26
0.0
 36
0.0
 17
0.0
 27
1.0
 37
0.0
 76
     0
330
1F
331
29
  0
MLINESTYLE
  5
18
102
{ACAD_REACTORS
330
17
102
}
330
17
100
AcDbMlineStyle
  2
Standard
 70
     0
  3

 62
   256
 51
90.0
 52
90.0
 71
     2
 49
0.5
 62
   256
  6
BYLAYER
 49
-0.5
 62
   256
  6
BYLAYER
  0
ACDBPLACEHOLDER
  5
F
102
{ACAD_REACTORS
330
E
102
}
330
E
  0
SCALE
  5
48
102
{ACAD_REACTORS
330
47
102
}
330
47
100
AcDbScale
 70
     0
300
1:1
140
1.0
141
1.0
290
     1
  0
SCALE
  5
49
102
{ACAD_REACTORS
330
47
102
}
330
47
100
AcDbScale
 70
     0
300
1:2
140
1.0
141
2.0
290
     0
  0
SCALE
  5
4A
102
{ACAD_REACTORS
330
47
102
}
330
47
100
AcDbScale
 70
     0
300
1:4
140
1.0
141
4.0
290
     0
  0
SCALE
  5
4B
102
{ACAD_REACTORS
330
47
102
}
330
47
100
AcDbScale
 70
     0
300
1:5
140
1.0
141
5.0
290
     0
  0
SCALE
  5
4C
102
{ACAD_REACTORS
330
47
102
}
330
47
100
AcDbScale
 70
     0
300
1:8
140
1.0
141
8.0
290
     0
  0
SCALE
  5
4D
102
{ACAD_REACTORS
330
47
102
}
330
47
100
AcDbScale
 70
     0
300
1:10
140
1.0
141
10.0
290
     0
  0
SCALE
  5
4E
102
{ACAD_REACTORS
330
47
102
}
330
47
100
AcDbScale
 70
     0
300
1:16
140
1.0
141
16.0
290
     0
  0
SCALE
  5
4F
102
{ACAD_REACTORS
330
47
102
}
330
47
100
AcDbScale
 70
     0
300
1:20
140
1.0
141
20.0
290
     0
  0
SCALE
  5
50
102
{ACAD_REACTORS
330
47
102
}
330
47
100
AcDbScale
 70
     0
300
1:30
140
1.0
141
30.0
290
     0
  0
SCALE
  5
51
102
{ACAD_REACTORS
330
47
102
}
330
47
100
AcDbScale
 70
     0
300
1:40
140
1.0
141
40.0
290
     0
  0
SCALE
  5
52
102
{ACAD_REACTORS
330
47
102
}
330
47
100
AcDbScale
 70
     0
300
1:50
140
1.0
141
50.0
290
     0
  0
SCALE
  5
53
102
{ACAD_REACTORS
330
47
102
}
330
47
100
AcDbScale
 70
     0
300
1:100
140
1.0
141
100.0
290
     0
  0
SCALE
  5
54
102
{ACAD_REACTORS
330
47
102
}
330
47
100
AcDbScale
 70
     0
300
2:1
140
2.0
141
1.0
290
     0
  0
SCALE
  5
55
102
{ACAD_REACTORS
330
47
102
}
330
47
100
AcDbScale
 70
     0
300
4:1
140
4.0
141
1.0
290
     0
  0
SCALE
  5
56
102
{ACAD_REACTORS
330
47
102
}
330
47
100
AcDbScale
 70
     0
300
8:1
140
8.0
141
1.0
290
     0
  0
SCALE
  5
57
102
{ACAD_REACTORS
330
47
102
}
330
47
100
AcDbScale
 70
     0
300
10:1
140
10.0
141
1.0
290
     0
  0
SCALE
  5
58
102
{ACAD_REACTORS
330
47
102
}
330
47
100
AcDbScale
 70
     0
300
100:1
140
100.0
141
1.0
290
     0
  0
SCALE
  5
59
102
{ACAD_REACTORS
330
47
102
}
330
47
100
AcDbScale
 70
     0
300
1/128" = 1'-0"
140
0.0078125
141
12.0
290
     0
  0
SCALE
  5
5A
102
{ACAD_REACTORS
330
47
102
}
330
47
100
AcDbScale
 70
     0
300
1/64" = 1'-0"
140
0.015625
141
12.0
290
     0
  0
SCALE
  5
5B
102
{ACAD_REACTORS
330
47
102
}
330
47
100
AcDbScale
 70
     0
300
1/32" = 1'-0"
140
0.03125
141
12.0
290
     0
  0
SCALE
  5
5C
102
{ACAD_REACTORS
330
47
102
}
330
47
100
AcDbScale
 70
     0
300
1/16" = 1'-0"
140
0.0625
141
12.0
290
     0
  0
SCALE
  5
5D
102
{ACAD_REACTORS
330
47
102
}
330
47
100
AcDbScale
 70
     0
300
3/32" = 1'-0"
140
0.09375
141
12.0
290
     0
  0
SCALE
  5
5E
102
{ACAD_REACTORS
330
47
102
}
330
47
100
AcDbScale
 70
     0
300
1/8" = 1'-0"
140
0.125
141
12.0
290
     0
  0
SCALE
  5
5F
102
{ACAD_REACTORS
330
47
102
}
330
47
100
AcDbScale
 70
     0
300
3/16" = 1'-0"
140
0.1875
141
12.0
290
     0
  0
SCALE
  5
60
102
{ACAD_REACTORS
330
47
102
}
330
47
100
AcDbScale
 70
     0
300
1/4" = 1'-0"
140
0.25
141
12.0
290
     0
  0
SCALE
  5
61
102
{ACAD_REACTORS
330
47
102
}
330
47
100
AcDbScale
 70
     0
300
3/8" = 1'-0"
140
0.375
141
12.0
290
     0
  0
SCALE
  5
62
102
{ACAD_REACTORS
330
47
102
}
330
47
100
AcDbScale
 70
     0
300
1/2" = 1'-0"
140
0.5
141
12.0
290
     0
  0
SCALE
  5
63
102
{ACAD_REACTORS
330
47
102
}
330
47
100
AcDbScale
 70
     0
300
3/4" = 1'-0"
140
0.75
141
12.0
290
     0
  0
SCALE
  5
64
102
{ACAD_REACTORS
330
47
102
}
330
47
100
AcDbScale
 70
     0
300
1" = 1'-0"
140
1.0
141
12.0
290
     0
  0
SCALE
  5
65
102
{ACAD_REACTORS
330
47
102
}
330
47
100
AcDbScale
 70
     0
300
1-1/2" = 1'-0"
140
1.5
141
12.0
290
     0
  0
SCALE
  5
66
102
{ACAD_REACTORS
330
47
102
}
330
47
100
AcDbScale
 70
     0
300
3" = 1'-0"
140
3.0
141
12.0
290
     0
  0
SCALE
  5
67
102
{ACAD_REACTORS
330
47
102
}
330
47
100
AcDbScale
 70
     0
300
6" = 1'-0"
140
6.0
141
12.0
290
     0
  0
SCALE
  5
68
102
{ACAD_REACTORS
330
47
102
}
330
47
100
AcDbScale
 70
     0
300
1'-0" = 1'-0"
140
12.0
141
12.0
290
     0
  0
ENDSEC
  0
EOF
